ISO-10303-21;
HEADER;
FILE_DESCRIPTION(('STEP AP214'),'1');
FILE_NAME('.stp','2020-06-11T00:10:48',(' '),(' '),'Spatial InterOp 3D',' ',' ');
FILE_SCHEMA(('AUTOMOTIVE_DESIGN { 1 0 10303 214 1 1 1 1 }'));
ENDSEC;
DATA;
#1=MECHANICAL_DESIGN_GEOMETRIC_PRESENTATION_REPRESENTATION(' ',(#10,#11,#12,#13,#14,#15,#16,#17,#18,#19,#20),#6);
#2=PRODUCT_DEFINITION_CONTEXT('',#21,'design');
#3=APPLICATION_PROTOCOL_DEFINITION('INTERNATIONAL STANDARD','automotive_design',1994,#21);
#4=PRODUCT_CATEGORY_RELATIONSHIP('NONE','NONE',#22,#23);
#5=SHAPE_DEFINITION_REPRESENTATION(#24,#25);
#6= (GEOMETRIC_REPRESENTATION_CONTEXT(3)GLOBAL_UNCERTAINTY_ASSIGNED_CONTEXT((#28))GLOBAL_UNIT_ASSIGNED_CONTEXT((#30,#31,#32))REPRESENTATION_CONTEXT('NONE','WORKSPACE'));
#10=STYLED_ITEM('',(#34),#35);
#11=STYLED_ITEM('',(#36),#37);
#12=STYLED_ITEM('',(#38),#39);
#13=STYLED_ITEM('',(#40),#41);
#14=STYLED_ITEM('',(#42),#43);
#15=STYLED_ITEM('',(#44),#45);
#16=STYLED_ITEM('',(#46),#47);
#17=STYLED_ITEM('',(#48),#49);
#18=STYLED_ITEM('',(#50),#51);
#19=STYLED_ITEM('',(#52),#53);
#20=STYLED_ITEM('',(#54),#55);
#21=APPLICATION_CONTEXT(' ');
#22=PRODUCT_CATEGORY('part','NONE');
#23=PRODUCT_RELATED_PRODUCT_CATEGORY('detail',' ',(#56));
#24=PRODUCT_DEFINITION_SHAPE('NONE','NONE',#57);
#25=ADVANCED_BREP_SHAPE_REPRESENTATION('\X2\FF7FFF98FF6FFF84FF9E\X0\1',(#55,#58),#6);
#28=UNCERTAINTY_MEASURE_WITH_UNIT(LENGTH_MEASURE(1.0E-008),#30,'','');
#30= (CONVERSION_BASED_UNIT('METRE',#61)LENGTH_UNIT()NAMED_UNIT(#64));
#31= (NAMED_UNIT(#66)PLANE_ANGLE_UNIT()SI_UNIT($,.RADIAN.));
#32= (NAMED_UNIT(#66)SOLID_ANGLE_UNIT()SI_UNIT($,.STERADIAN.));
#34=PRESENTATION_STYLE_ASSIGNMENT((#72));
#35=ADVANCED_FACE('0:27',(#73),#74,.T.);
#36=PRESENTATION_STYLE_ASSIGNMENT((#75));
#37=ADVANCED_FACE('0:30',(#76),#77,.T.);
#38=PRESENTATION_STYLE_ASSIGNMENT((#78));
#39=ADVANCED_FACE('0:33',(#79),#80,.T.);
#40=PRESENTATION_STYLE_ASSIGNMENT((#81));
#41=ADVANCED_FACE('0:36',(#82),#83,.T.);
#42=PRESENTATION_STYLE_ASSIGNMENT((#84));
#43=ADVANCED_FACE('0:39',(#85),#86,.T.);
#44=PRESENTATION_STYLE_ASSIGNMENT((#87));
#45=ADVANCED_FACE('0:42',(#88),#89,.T.);
#46=PRESENTATION_STYLE_ASSIGNMENT((#90));
#47=ADVANCED_FACE('0:45',(#91),#92,.T.);
#48=PRESENTATION_STYLE_ASSIGNMENT((#93));
#49=ADVANCED_FACE('0:48',(#94),#95,.T.);
#50=PRESENTATION_STYLE_ASSIGNMENT((#96));
#51=ADVANCED_FACE('0:51',(#97),#98,.T.);
#52=PRESENTATION_STYLE_ASSIGNMENT((#99));
#53=ADVANCED_FACE('0:54',(#100),#101,.T.);
#54=PRESENTATION_STYLE_ASSIGNMENT((#102));
#55=MANIFOLD_SOLID_BREP('\X2\FF7FFF98FF6FFF84FF9E\X0\1',#103);
#56=PRODUCT('\X2\FF7FFF98FF6FFF84FF9E\X0\1','','PART--DESC',(#104));
#57=PRODUCT_DEFINITION('','NONE',#105,#2);
#58=AXIS2_PLACEMENT_3D('',#106,#107,#108);
#61=LENGTH_MEASURE_WITH_UNIT(LENGTH_MEASURE(1.0),#109);
#64=DIMENSIONAL_EXPONENTS(1.0,0.0,0.0,0.0,0.0,0.0,0.0);
#66=DIMENSIONAL_EXPONENTS(0.0,0.0,0.0,0.0,0.0,0.0,0.0);
#72=SURFACE_STYLE_USAGE(.BOTH.,#110);
#73=FACE_OUTER_BOUND('',#111,.T.);
#74=PLANE('',#112);
#75=SURFACE_STYLE_USAGE(.BOTH.,#113);
#76=FACE_OUTER_BOUND('',#114,.T.);
#77=PLANE('',#115);
#78=SURFACE_STYLE_USAGE(.BOTH.,#116);
#79=FACE_OUTER_BOUND('',#117,.T.);
#80=PLANE('',#118);
#81=SURFACE_STYLE_USAGE(.BOTH.,#119);
#82=FACE_OUTER_BOUND('',#120,.T.);
#83=PLANE('',#121);
#84=SURFACE_STYLE_USAGE(.BOTH.,#122);
#85=FACE_OUTER_BOUND('',#123,.T.);
#86=PLANE('',#124);
#87=SURFACE_STYLE_USAGE(.BOTH.,#125);
#88=FACE_OUTER_BOUND('',#126,.T.);
#89=PLANE('',#127);
#90=SURFACE_STYLE_USAGE(.BOTH.,#128);
#91=FACE_OUTER_BOUND('',#129,.T.);
#92=PLANE('',#130);
#93=SURFACE_STYLE_USAGE(.BOTH.,#131);
#94=FACE_OUTER_BOUND('',#132,.T.);
#95=PLANE('',#133);
#96=SURFACE_STYLE_USAGE(.BOTH.,#134);
#97=FACE_OUTER_BOUND('',#135,.T.);
#98=PLANE('',#136);
#99=SURFACE_STYLE_USAGE(.BOTH.,#137);
#100=FACE_OUTER_BOUND('',#138,.T.);
#101=PLANE('',#139);
#102=SURFACE_STYLE_USAGE(.BOTH.,#140);
#103=CLOSED_SHELL('',(#35,#37,#39,#41,#43,#45,#47,#49,#51,#53));
#104=PRODUCT_CONTEXT('',#21,'mechanical');
#105=PRODUCT_DEFINITION_FORMATION_WITH_SPECIFIED_SOURCE(' ','NONE',#56,.NOT_KNOWN.);
#106=CARTESIAN_POINT('',(0.0,0.0,0.0));
#107=DIRECTION('',(0.0,0.0,1.0));
#108=DIRECTION('',(1.0,0.0,0.0));
#109= (NAMED_UNIT(#64)LENGTH_UNIT()SI_UNIT($,.METRE.));
#110=SURFACE_SIDE_STYLE('',(#142));
#111=EDGE_LOOP('',(#143,#144,#145,#146));
#112=AXIS2_PLACEMENT_3D('',#147,#148,#149);
#113=SURFACE_SIDE_STYLE('',(#150));
#114=EDGE_LOOP('',(#151,#152,#153,#154));
#115=AXIS2_PLACEMENT_3D('',#155,#156,#157);
#116=SURFACE_SIDE_STYLE('',(#158));
#117=EDGE_LOOP('',(#159,#160,#161,#162));
#118=AXIS2_PLACEMENT_3D('',#163,#164,#165);
#119=SURFACE_SIDE_STYLE('',(#166));
#120=EDGE_LOOP('',(#167,#168,#169,#170));
#121=AXIS2_PLACEMENT_3D('',#171,#172,#173);
#122=SURFACE_SIDE_STYLE('',(#174));
#123=EDGE_LOOP('',(#175,#176,#177,#178,#179,#180,#181,#182));
#124=AXIS2_PLACEMENT_3D('',#183,#184,#185);
#125=SURFACE_SIDE_STYLE('',(#186));
#126=EDGE_LOOP('',(#187,#188,#189,#190));
#127=AXIS2_PLACEMENT_3D('',#191,#192,#193);
#128=SURFACE_SIDE_STYLE('',(#194));
#129=EDGE_LOOP('',(#195,#196,#197,#198,#199,#200,#201,#202));
#130=AXIS2_PLACEMENT_3D('',#203,#204,#205);
#131=SURFACE_SIDE_STYLE('',(#206));
#132=EDGE_LOOP('',(#207,#208,#209,#210));
#133=AXIS2_PLACEMENT_3D('',#211,#212,#213);
#134=SURFACE_SIDE_STYLE('',(#214));
#135=EDGE_LOOP('',(#215,#216,#217,#218));
#136=AXIS2_PLACEMENT_3D('',#219,#220,#221);
#137=SURFACE_SIDE_STYLE('',(#222));
#138=EDGE_LOOP('',(#223,#224,#225,#226));
#139=AXIS2_PLACEMENT_3D('',#227,#228,#229);
#140=SURFACE_SIDE_STYLE('',(#230));
#142=SURFACE_STYLE_FILL_AREA(#231);
#143=ORIENTED_EDGE('',*,*,#232,.T.);
#144=ORIENTED_EDGE('',*,*,#233,.F.);
#145=ORIENTED_EDGE('',*,*,#234,.F.);
#146=ORIENTED_EDGE('',*,*,#235,.T.);
#147=CARTESIAN_POINT('',(0.0,0.0004,0.0));
#148=DIRECTION('',(0.0,-1.0,0.0));
#149=DIRECTION('',(0.0,0.0,1.0));
#150=SURFACE_STYLE_FILL_AREA(#236);
#151=ORIENTED_EDGE('',*,*,#237,.F.);
#152=ORIENTED_EDGE('',*,*,#238,.F.);
#153=ORIENTED_EDGE('',*,*,#239,.F.);
#154=ORIENTED_EDGE('',*,*,#240,.F.);
#155=CARTESIAN_POINT('',(0.0,0.0,0.00022));
#156=DIRECTION('',(0.0,0.0,1.0));
#157=DIRECTION('',(1.0,0.0,0.0));
#158=SURFACE_STYLE_FILL_AREA(#241);
#159=ORIENTED_EDGE('',*,*,#242,.F.);
#160=ORIENTED_EDGE('',*,*,#243,.F.);
#161=ORIENTED_EDGE('',*,*,#244,.T.);
#162=ORIENTED_EDGE('',*,*,#239,.T.);
#163=CARTESIAN_POINT('',(0.0,0.001,0.0));
#164=DIRECTION('',(0.0,1.0,0.0));
#165=DIRECTION('',(0.0,0.0,-1.0));
#166=SURFACE_STYLE_FILL_AREA(#245);
#167=ORIENTED_EDGE('',*,*,#246,.T.);
#168=ORIENTED_EDGE('',*,*,#237,.T.);
#169=ORIENTED_EDGE('',*,*,#247,.F.);
#170=ORIENTED_EDGE('',*,*,#248,.T.);
#171=CARTESIAN_POINT('',(0.0,-0.001,0.0));
#172=DIRECTION('',(0.0,-1.0,0.0));
#173=DIRECTION('',(0.0,0.0,-1.0));
#174=SURFACE_STYLE_FILL_AREA(#249);
#175=ORIENTED_EDGE('',*,*,#247,.T.);
#176=ORIENTED_EDGE('',*,*,#240,.T.);
#177=ORIENTED_EDGE('',*,*,#244,.F.);
#178=ORIENTED_EDGE('',*,*,#250,.F.);
#179=ORIENTED_EDGE('',*,*,#233,.T.);
#180=ORIENTED_EDGE('',*,*,#251,.T.);
#181=ORIENTED_EDGE('',*,*,#252,.F.);
#182=ORIENTED_EDGE('',*,*,#253,.T.);
#183=CARTESIAN_POINT('',(-0.000625,-0.0007,0.0));
#184=DIRECTION('',(-1.0,0.0,0.0));
#185=DIRECTION('',(0.0,0.0,1.0));
#186=SURFACE_STYLE_FILL_AREA(#254);
#187=ORIENTED_EDGE('',*,*,#255,.T.);
#188=ORIENTED_EDGE('',*,*,#256,.F.);
#189=ORIENTED_EDGE('',*,*,#257,.T.);
#190=ORIENTED_EDGE('',*,*,#252,.T.);
#191=CARTESIAN_POINT('',(0.0,-0.0004,0.0));
#192=DIRECTION('',(0.0,1.0,0.0));
#193=DIRECTION('',(0.0,0.0,1.0));
#194=SURFACE_STYLE_FILL_AREA(#258);
#195=ORIENTED_EDGE('',*,*,#238,.T.);
#196=ORIENTED_EDGE('',*,*,#246,.F.);
#197=ORIENTED_EDGE('',*,*,#259,.T.);
#198=ORIENTED_EDGE('',*,*,#256,.T.);
#199=ORIENTED_EDGE('',*,*,#260,.T.);
#200=ORIENTED_EDGE('',*,*,#235,.F.);
#201=ORIENTED_EDGE('',*,*,#261,.F.);
#202=ORIENTED_EDGE('',*,*,#242,.T.);
#203=CARTESIAN_POINT('',(0.000625,-0.0007,0.0));
#204=DIRECTION('',(1.0,0.0,0.0));
#205=DIRECTION('',(0.0,0.0,-1.0));
#206=SURFACE_STYLE_FILL_AREA(#262);
#207=ORIENTED_EDGE('',*,*,#260,.F.);
#208=ORIENTED_EDGE('',*,*,#255,.F.);
#209=ORIENTED_EDGE('',*,*,#251,.F.);
#210=ORIENTED_EDGE('',*,*,#232,.F.);
#211=CARTESIAN_POINT('',(0.0,0.0,6.0E-005));
#212=DIRECTION('',(0.0,0.0,-1.0));
#213=DIRECTION('',(-1.0,0.0,0.0));
#214=SURFACE_STYLE_FILL_AREA(#263);
#215=ORIENTED_EDGE('',*,*,#261,.T.);
#216=ORIENTED_EDGE('',*,*,#234,.T.);
#217=ORIENTED_EDGE('',*,*,#250,.T.);
#218=ORIENTED_EDGE('',*,*,#243,.T.);
#219=CARTESIAN_POINT('',(0.0,0.0007,-1.25E-005));
#220=DIRECTION('',(0.0,0.0,-1.0));
#221=DIRECTION('',(-1.0,0.0,0.0));
#222=SURFACE_STYLE_FILL_AREA(#264);
#223=ORIENTED_EDGE('',*,*,#259,.F.);
#224=ORIENTED_EDGE('',*,*,#248,.F.);
#225=ORIENTED_EDGE('',*,*,#253,.F.);
#226=ORIENTED_EDGE('',*,*,#257,.F.);
#227=CARTESIAN_POINT('',(0.0,-0.0007,-1.25E-005));
#228=DIRECTION('',(0.0,0.0,-1.0));
#229=DIRECTION('',(-1.0,0.0,0.0));
#230=SURFACE_STYLE_FILL_AREA(#265);
#231=FILL_AREA_STYLE('',(#266));
#232=EDGE_CURVE('0:57',#267,#268,#269,.T.);
#233=EDGE_CURVE('0:60',#270,#268,#271,.T.);
#234=EDGE_CURVE('0:63',#272,#270,#273,.T.);
#235=EDGE_CURVE('0:66',#272,#267,#274,.T.);
#236=FILL_AREA_STYLE('',(#275));
#237=EDGE_CURVE('0:69',#276,#277,#278,.T.);
#238=EDGE_CURVE('0:72',#279,#276,#280,.T.);
#239=EDGE_CURVE('0:75',#281,#279,#282,.T.);
#240=EDGE_CURVE('0:78',#277,#281,#283,.T.);
#241=FILL_AREA_STYLE('',(#284));
#242=EDGE_CURVE('0:81',#285,#279,#286,.T.);
#243=EDGE_CURVE('0:84',#287,#285,#288,.T.);
#244=EDGE_CURVE('0:87',#287,#281,#289,.T.);
#245=FILL_AREA_STYLE('',(#290));
#246=EDGE_CURVE('0:90',#291,#276,#292,.T.);
#247=EDGE_CURVE('0:93',#293,#277,#294,.T.);
#248=EDGE_CURVE('0:96',#293,#291,#295,.T.);
#249=FILL_AREA_STYLE('',(#296));
#250=EDGE_CURVE('0:99',#270,#287,#297,.T.);
#251=EDGE_CURVE('0:102',#268,#298,#299,.T.);
#252=EDGE_CURVE('0:105',#300,#298,#301,.T.);
#253=EDGE_CURVE('0:108',#300,#293,#302,.T.);
#254=FILL_AREA_STYLE('',(#303));
#255=EDGE_CURVE('0:111',#298,#304,#305,.T.);
#256=EDGE_CURVE('0:114',#306,#304,#307,.T.);
#257=EDGE_CURVE('0:117',#306,#300,#308,.T.);
#258=FILL_AREA_STYLE('',(#309));
#259=EDGE_CURVE('0:120',#291,#306,#310,.T.);
#260=EDGE_CURVE('0:123',#304,#267,#311,.T.);
#261=EDGE_CURVE('0:126',#285,#272,#312,.T.);
#262=FILL_AREA_STYLE('',(#313));
#263=FILL_AREA_STYLE('',(#314));
#264=FILL_AREA_STYLE('',(#315));
#265=FILL_AREA_STYLE('',(#316));
#266=FILL_AREA_STYLE_COLOUR('',#317);
#267=VERTEX_POINT('',#318);
#268=VERTEX_POINT('',#319);
#269=LINE('',#320,#321);
#270=VERTEX_POINT('',#322);
#271=LINE('',#323,#324);
#272=VERTEX_POINT('',#325);
#273=LINE('',#326,#327);
#274=LINE('',#328,#329);
#275=FILL_AREA_STYLE_COLOUR('',#330);
#276=VERTEX_POINT('',#331);
#277=VERTEX_POINT('',#332);
#278=LINE('',#333,#334);
#279=VERTEX_POINT('',#335);
#280=LINE('',#336,#337);
#281=VERTEX_POINT('',#338);
#282=LINE('',#339,#340);
#283=LINE('',#341,#342);
#284=FILL_AREA_STYLE_COLOUR('',#343);
#285=VERTEX_POINT('',#344);
#286=LINE('',#345,#346);
#287=VERTEX_POINT('',#347);
#288=LINE('',#348,#349);
#289=LINE('',#350,#351);
#290=FILL_AREA_STYLE_COLOUR('',#352);
#291=VERTEX_POINT('',#353);
#292=LINE('',#354,#355);
#293=VERTEX_POINT('',#356);
#294=LINE('',#357,#358);
#295=LINE('',#359,#360);
#296=FILL_AREA_STYLE_COLOUR('',#361);
#297=LINE('',#362,#363);
#298=VERTEX_POINT('',#364);
#299=LINE('',#365,#366);
#300=VERTEX_POINT('',#367);
#301=LINE('',#368,#369);
#302=LINE('',#370,#371);
#303=FILL_AREA_STYLE_COLOUR('',#372);
#304=VERTEX_POINT('',#373);
#305=LINE('',#374,#375);
#306=VERTEX_POINT('',#376);
#307=LINE('',#377,#378);
#308=LINE('',#379,#380);
#309=FILL_AREA_STYLE_COLOUR('',#381);
#310=LINE('',#382,#383);
#311=LINE('',#384,#385);
#312=LINE('',#386,#387);
#313=FILL_AREA_STYLE_COLOUR('',#388);
#314=FILL_AREA_STYLE_COLOUR('',#389);
#315=FILL_AREA_STYLE_COLOUR('',#390);
#316=FILL_AREA_STYLE_COLOUR('',#391);
#317=COLOUR_RGB('',0.686274528503418,0.560784339904785,0.686274528503418);
#318=CARTESIAN_POINT('',(0.000625,0.0004,6.0E-005));
#319=CARTESIAN_POINT('',(-0.000625,0.0004,6.0E-005));
#320=CARTESIAN_POINT('',(0.0,0.0004,6.0E-005));
#321=VECTOR('',#392,1.0);
#322=CARTESIAN_POINT('',(-0.000625,0.0004,-1.25E-005));
#323=CARTESIAN_POINT('',(-0.000625,0.0004,0.0));
#324=VECTOR('',#393,1.0);
#325=CARTESIAN_POINT('',(0.000625,0.0004,-1.25E-005));
#326=CARTESIAN_POINT('',(0.0,0.0004,-1.25E-005));
#327=VECTOR('',#394,1.0);
#328=CARTESIAN_POINT('',(0.000625,0.0004,0.0));
#329=VECTOR('',#395,1.0);
#330=COLOUR_RGB('',0.686274528503418,0.560784339904785,0.686274528503418);
#331=CARTESIAN_POINT('',(0.000625,-0.001,0.00022));
#332=CARTESIAN_POINT('',(-0.000625,-0.001,0.00022));
#333=CARTESIAN_POINT('',(0.0,-0.001,0.00022));
#334=VECTOR('',#396,1.0);
#335=CARTESIAN_POINT('',(0.000625,0.001,0.00022));
#336=CARTESIAN_POINT('',(0.000625,0.0,0.00022));
#337=VECTOR('',#397,1.0);
#338=CARTESIAN_POINT('',(-0.000625,0.001,0.00022));
#339=CARTESIAN_POINT('',(0.0,0.001,0.00022));
#340=VECTOR('',#398,1.0);
#341=CARTESIAN_POINT('',(-0.000625,0.0,0.00022));
#342=VECTOR('',#399,1.0);
#343=COLOUR_RGB('',0.686274528503418,0.560784339904785,0.686274528503418);
#344=CARTESIAN_POINT('',(0.000625,0.001,-1.25E-005));
#345=CARTESIAN_POINT('',(0.000625,0.001,0.0));
#346=VECTOR('',#400,1.0);
#347=CARTESIAN_POINT('',(-0.000625,0.001,-1.25E-005));
#348=CARTESIAN_POINT('',(0.0,0.001,-1.25E-005));
#349=VECTOR('',#401,1.0);
#350=CARTESIAN_POINT('',(-0.000625,0.001,0.0));
#351=VECTOR('',#402,1.0);
#352=COLOUR_RGB('',0.686274528503418,0.560784339904785,0.686274528503418);
#353=CARTESIAN_POINT('',(0.000625,-0.001,-1.25E-005));
#354=CARTESIAN_POINT('',(0.000625,-0.001,0.0));
#355=VECTOR('',#403,1.0);
#356=CARTESIAN_POINT('',(-0.000625,-0.001,-1.25E-005));
#357=CARTESIAN_POINT('',(-0.000625,-0.001,0.0));
#358=VECTOR('',#404,1.0);
#359=CARTESIAN_POINT('',(0.0,-0.001,-1.25E-005));
#360=VECTOR('',#405,1.0);
#361=COLOUR_RGB('',0.686274528503418,0.560784339904785,0.686274528503418);
#362=CARTESIAN_POINT('',(-0.000625,0.0007,-1.25E-005));
#363=VECTOR('',#406,1.0);
#364=CARTESIAN_POINT('',(-0.000625,-0.0004,6.0E-005));
#365=CARTESIAN_POINT('',(-0.000625,0.0,6.0E-005));
#366=VECTOR('',#407,1.0);
#367=CARTESIAN_POINT('',(-0.000625,-0.0004,-1.25E-005));
#368=CARTESIAN_POINT('',(-0.000625,-0.0004,0.0));
#369=VECTOR('',#408,1.0);
#370=CARTESIAN_POINT('',(-0.000625,-0.0007,-1.25E-005));
#371=VECTOR('',#409,1.0);
#372=COLOUR_RGB('',0.686274528503418,0.560784339904785,0.686274528503418);
#373=CARTESIAN_POINT('',(0.000625,-0.0004,6.0E-005));
#374=CARTESIAN_POINT('',(0.0,-0.0004,6.0E-005));
#375=VECTOR('',#410,1.0);
#376=CARTESIAN_POINT('',(0.000625,-0.0004,-1.25E-005));
#377=CARTESIAN_POINT('',(0.000625,-0.0004,0.0));
#378=VECTOR('',#411,1.0);
#379=CARTESIAN_POINT('',(0.0,-0.0004,-1.25E-005));
#380=VECTOR('',#412,1.0);
#381=COLOUR_RGB('',0.686274528503418,0.560784339904785,0.686274528503418);
#382=CARTESIAN_POINT('',(0.000625,-0.0007,-1.25E-005));
#383=VECTOR('',#413,1.0);
#384=CARTESIAN_POINT('',(0.000625,0.0,6.0E-005));
#385=VECTOR('',#414,1.0);
#386=CARTESIAN_POINT('',(0.000625,0.0007,-1.25E-005));
#387=VECTOR('',#415,1.0);
#388=COLOUR_RGB('',0.686274528503418,0.560784339904785,0.686274528503418);
#389=COLOUR_RGB('',0.686274528503418,0.560784339904785,0.686274528503418);
#390=COLOUR_RGB('',0.686274528503418,0.560784339904785,0.686274528503418);
#391=COLOUR_RGB('',0.686274528503418,0.560784339904785,0.686274528503418);
#392=DIRECTION('',(-1.0,0.0,0.0));
#393=DIRECTION('',(0.0,0.0,1.0));
#394=DIRECTION('',(-1.0,0.0,0.0));
#395=DIRECTION('',(0.0,0.0,1.0));
#396=DIRECTION('',(-1.0,0.0,0.0));
#397=DIRECTION('',(0.0,-1.0,0.0));
#398=DIRECTION('',(1.0,0.0,0.0));
#399=DIRECTION('',(0.0,1.0,0.0));
#400=DIRECTION('',(0.0,0.0,1.0));
#401=DIRECTION('',(1.0,0.0,0.0));
#402=DIRECTION('',(0.0,0.0,1.0));
#403=DIRECTION('',(0.0,0.0,1.0));
#404=DIRECTION('',(0.0,0.0,1.0));
#405=DIRECTION('',(1.0,0.0,0.0));
#406=DIRECTION('',(0.0,1.0,0.0));
#407=DIRECTION('',(0.0,-1.0,0.0));
#408=DIRECTION('',(0.0,0.0,1.0));
#409=DIRECTION('',(0.0,-1.0,0.0));
#410=DIRECTION('',(1.0,0.0,0.0));
#411=DIRECTION('',(0.0,0.0,1.0));
#412=DIRECTION('',(-1.0,0.0,0.0));
#413=DIRECTION('',(0.0,1.0,0.0));
#414=DIRECTION('',(0.0,1.0,0.0));
#415=DIRECTION('',(0.0,-1.0,0.0));
#416=PRESENTATION_LAYER_ASSIGNMENT('9','\X2\FF9AFF72FF94\X0\0',(#55));
ENDSEC;
END-ISO-10303-21;
